Misc Christmas - God Rest You Merry Gentlemen Chords & Tabs

 

God Rest You Merry Gentlemen Chords & Tabs

Misc Christmas Chords & Tabs

Version: 2 Type: Bass Tab 0 ratings
1 star 2 stars 3 stars 4 stars 5 stars
comments

God Rest You Merry Gentlemen Bass Tab

Christmas Songs - God Rest You Merry Gentlemen
Submitted By: Tyler
EMail: matlock18@hotmail.com


------------------------------------
-------7-7-5---------------5-7------
--0-5--------8-7-5---5-7-8----------
-------------------8----------------

------------------------------------
-----7-7-5----------------5-7-------
-5-5--------8-7-5---5-7-8-----------
------------------8-----------------
[ Tab from: http://www.guitartabs.cc/tabs/m/misc_christmas/god_rest_you_merry_gentlemen_btab_ver_2.html ]
---------------5-7------------------
-5-7-7-8-5-7-8-----7-5--------5-7---
------------------------8-5-7-------
------------------------------------

------------------------------------
---5-7-(7)-8-7-5---------------9----
-8---------------8-7-5---8-7-5------
------------------------------------

---------5-7------------------------
---5-7-8-----7-5--------------------
-8---------------8-7-5--------------
------------------------------------

thats it! its not hard but its a fun song to play.
Comments