Misc Christmas - Deck The Halls Chords & Tabs

 

Deck The Halls Chords & Tabs

Misc Christmas Chords & Tabs

Version: 7 Type: Tab 0 ratings
1 star 2 stars 3 stars 4 stars 5 stars
comments

Deck The Halls Tab

   
Tabber: T.J. Nelson
Email: halfstepdown88@hotmail.com
Song: Deck The Halls With Boughs Of Holly

One day I accidentally figured this out but it
was all on one string so I changed it so it is
all in one area instead of one string so here
it is.

Tuning E A D G B E (Standard Tuning)

|----------------------------------------------------------|
|----------------------------------------------------------|
|-9--7-----------------------------7-----------------------|
|-------11--9--7--9--11--7--9--11-----9--11--9--7--6--7----|
|----------------------------------------------------------|
|----------------------------------------------------------|

[ Tab from: http://www.guitartabs.cc/tabs/m/misc_christmas/deck_the_halls_tab_ver_7.html ]
|------------------------------------------------------------|
|-----------------------------------------9--10--9-----------|
|--------7---------8--7---------8--9--11------------11--9----|
|-9--11-----9--11--------9--11-------------------------------|
|------------------------------------------------------------|
|------------------------------------------------------------|

|----------------------------------------------------------|
|----------------------------------------------------------|
|-9--7-----------------------------7-----------------------|
|-------11--9--7--9--11--7--9--11-----9--11--9--7--6--7~~--|
|----------------------------------------------------------|
|----------------------------------------------------------|

HO HO HO AND A HAPPY NEW YEAR!
Comments