Misc Christmas - Deck The Halls Chords & Tabs

 

Deck The Halls Chords & Tabs

Misc Christmas Chords & Tabs

Version: 6 Type: Tab 0 ratings
1 star 2 stars 3 stars 4 stars 5 stars
comments

Deck The Halls Tab

Band: Misc Christmas
Song: Deck the Halls
Difficulty: Very Easy

This is a pretty easy version of the song. This is how I play it.




|----------------|------------------|----------------|--------------|
|--3----1-0------|-----------0------|----0-1---0-----|--------------|
|--------------2-|--0----2--------0-|--2-----2------2|-0---------0--|
|----------------|------------------|----------------|------4-------|
|----------------|------------------|----------------|--------------|
|----------------|------------------|----------------|--------------|


|----------------|------------------|----------------|--------------|
|--3----1-0------|-----------0------|----0-1---0-----|--------------|
|--------------2-|--0----2--------0-|--2-----2------2|-0---------0--|
|----------------|------------------|----------------|------4-------|
|----------------|------------------|----------------|--------------|
|----------------|------------------|----------------|--------------|

[ Tab from: http://www.guitartabs.cc/tabs/m/misc_christmas/deck_the_halls_tab_ver_6.html ]
|----------------|------------------|-----------0-2-3|--2----0------|
|-------0-1------|--0-----1-3-------|--0-2-3---------|------------3-|
|--2------------2|------------2-----|----------------|--------------|
|----------------|------------------|----------------|--------------|
|----------------|------------------|----------------|--------------|
|----------------|------------------|----------------|--------------|


|----------------|------------------|--0-0-0-0-------|--------------|
|--3----1-0------|-----------0------|----------3----1|-0------------|
|--------------2-|--0----2--------0-|----------------|------2-----0-|
|----------------|------------------|----------------|--------------|
|----------------|------------------|----------------|--------------|
|----------------|------------------|----------------|--------------|


Lyrics...

Deck the halls with boughs of holly, fa la la la la, la la, la, la
'Tis the season to be jolly, fa la la la la, la la, la, la
Don we now our gay apparel, fa la la, la la la, la, la, la
Troll the ancient yuletide carol, fa la la la la, la la, la, la
Comments