Misc Christmas - Deck The Halls Chords & Tabs

 

Deck The Halls Chords & Tabs

Misc Christmas Chords & Tabs

Version: 1 Type: Bass Tab 0 ratings
1 star 2 stars 3 stars 4 stars 5 stars
comments

Deck The Halls Bass Tab

G||*--0-------------------|----------------------|------------------------|
D||*---------3--2----0----|-------0----2---------|--0--2--3--0--2------0--|
A||-----------------------|--3--------------3----|------------------------|
E||-----------------------|----------------------|------------------------|


                                                                      
---------------------*||----------------------|------------0---------|
---------------------*||--0------2--3----0----|--2------3-------0----|
--3----2----3---------||----------------------|----------------------|
----------------------||----------------------|----------------------|

[ Tab from: http://www.guitartabs.cc/tabs/m/misc_christmas/deck_the_halls_btab.html ]
                                                                      

----------------0--1----|--0------------------|----------------------|
--------0----2----------|-------2----0--------|--0-------------------|
--2--4------------------|---------------------|---------3--2----0----|
------------------------|---------------------|----------------------|

                                                                       
----------------------|------------------------|---------------------||
-------0----2---------|--0--2--3--0--2------0--|---------------------||
--3--------------3----|------------------------|--3----2----3--------||
----------------------|------------------------|---------------------||
Comments