Misc Christmas - Carol Of The Bells Chords & Tabs

 

Carol Of The Bells Chords & Tabs

Misc Christmas Chords & Tabs

Version: 4 Type: Tab 0 ratings
1 star 2 stars 3 stars 4 stars 5 stars
comments

Carol Of The Bells Tab

   
I saw the classical version of Carol of The Bells, so I thought that it would be a good
idea to put in the Heavy Metal Version.

Tableture Key:
x-muted key
h-hammer on

Tuning-E,A,D,G,B,E
   
          Riff 1                         Riff 2
|------------------------------|------------------------------|
|------------------------------|------------------------------|
|------------------------------|------------------------------| Main Riff
|------------------------------|------------------------------| Play both 
|------------------------------|------------------------------| riffs 2x
|-3x-2x-3x-0x------3x-2x-3x-0x-|-7x-5x-7x-3x------7x-5x-7x-3x-|
[ Tab from: http://www.guitartabs.cc/tabs/m/misc_christmas/carol_of_the_bells_tab_ver_4.html ]
|--------------------------------------------|
|--------------------------------------------|
|--------------------------------------------| Verse
|----------------------------------------2-2-|
|-7-7-7-5-3-2x--2x-2x--0---0x--0x-0x-2-0-2-2-|
|------------------------3---------------0-0-|

|---------------------|
|---------------------|
|-------------2h4-2-0-| Play two times
|-------0h2-4---------| Solo
|-0h2-4---------------|
|---------------------|

|---------------------------------------------------------|
|---------------------------------------------------------| Main Riff (Outro)
|---------------------------------------------------------|
|-------------------------------------------------------2-|
|-------------------------------------------------------2-|
|-3x-2x-3x-0x-3x-2x-3x-0x-3x-2x-3x-0x-3x-2x-3x-0x-3x-2x-0-|

                                                        Ding Dong Ding Dong

Happy Holidays!

Enjoy
Comments