Misc Christmas - Carol Of The Bells Chords & Tabs

 

Carol Of The Bells Chords & Tabs

Misc Christmas Chords & Tabs

Version: 3 Type: Tab 0 ratings
1 star 2 stars 3 stars 4 stars 5 stars
comments

Carol Of The Bells Tab

Riff 1
e--------------------------------------------------
B--1--0-1-------1--0-1------1--0-1-------1--0-1----
G---------2------------2-----------2------------2--  x1
D--------------------------------------------------
A--------------------------------------------------
E--------------------------------------------------

Riff 2
e--------------------------------------------------
B--1--0-1-------1--0-1------1--0-1-------1--0-1----
G---------2------------2-----------2------------2--  x2
D--------------------------------------------------
A--0-----------------------------------------------
E---------------3-----------1------------0---------

Riff 3
e--0----0-------0----0------0----0-------0----0----
B--1--3---1-----1--3---1----1--3---1-----1--3---1--
G--------------------------------------------------  x1
D--------------------------------------------------
A--0-----------------------------------------------
E---------------3-----------1------------0---------
[ Tab from: http://www.guitartabs.cc/tabs/m/misc_christmas/carol_of_the_bells_tab_ver_3.html ]
Solo
e--5--5-5-3-1---0--0-0-------------0---------------
B----------------------3-1--3--3-3---3-------------
G----------------------------------------2--2-2-2--  x1
D--------------------------------------------------
A--0-----------------------------------------------
E---------------3-----------1------------0---------

Other part
e----------------0----------------------0----------
B----------0-1-3---3-1------------0-1-3---3-1------
G------1-2--------------------1-2------------------  x1
D--2-4--------------------2-4----------------------
A--------------------------------------------------
E--0-----------0----------0-----------0------------

Riff 2
e--------------------------------------------------
B--1--0-1-------1--0-1------1--0-1-------1--0-1----
G---------2------------2-----------2------------2--  x2
D--------------------------------------------------
A--0-----------------------------------------------
E---------------3-----------1------------0---------

Ending
e--0------0---------------------
B--1---3--1---------------------
G------4------2-------------2---  
D-------------------------------
A--0------------------------0---
E-------------------------------

Yeah yeah, so its not the "Transiberian Orchestra" but have fun!
And thanks alot to my guitar teacher.
Comments