Misc Christmas - Auld Lang Syne Chords & Tabs

 

Auld Lang Syne Chords & Tabs

Misc Christmas Chords & Tabs

Version: 1 Type: Tab 11 ratings
1 star 2 stars 3 stars 4 stars 5 stars
comments

Auld Lang Syne Tab

   
Song: Auld Lang Syne (New Year's Song)
Band: N/A
Tabbed by: SpRiNgWaFfLe [springwaffle@comcast.net]

I don't know who wrote this song. I don't know
the words, and I don't know what key it's in. But
this is how I learned to play it. Enjoy!

e-----------3-1----1--3-1----3-3-6-8-
b---4--3-4-------4--------4----------
g-3----------------------------------
d------------------------------------
a------------------------------------
e------------------------------------
[ Tab from: http://www.guitartabs.cc/tabs/m/misc_christmas/auld_lang_syne_tab.html ]
e-8-6--3-3----1----1--3-1------------
b-----------4----4--------4--1-1---4-
g--------------------------------3---
d------------------------------------
a------------------------------------
e------------------------------------

Play both those parts again then this:

e-8-6--3-3----1----1--8-6--3-3--6--8-
b-----------4----4-------------------
g------------------------------------
d------------------------------------
a------------------------------------
e------------------------------------

e-8-6--3-3----1----1--3-1------------
b-----------4----4--------4--1-1---4-
g--------------------------------3---
d------------------------------------
a------------------------------------
e------------------------------------
Comments