Misc Christmas - Auld Lang Syne Chords & Tabs

 

Auld Lang Syne Chords & Tabs

Misc Christmas Chords & Tabs

Version: 1 Type: Bass Tab 0 ratings
1 star 2 stars 3 stars 4 stars 5 stars
comments

Auld Lang Syne Bass Tab

-This is my first tab and I was just messing around and got it. I'm pretty ure it's 
and do comment!

PS: All of these are double didgets. It's not 1-5, it's 15

G----------------------------------------17-|
D-10--15-14-15-19-17-15--17-19-15-15-19-----|
A-------------------------------------------|
E-------------------------------------------|

G--19-19-17-------------------------------------|
D-----------19-19-15-17-15-17-19-15-12-12-10-15-|
A-----------------------------------------------|
E-----------------------------------------------|
[ Tab from: http://www.guitartabs.cc/tabs/m/misc_christmas/auld_lang_syne_btab.html ]
G-19-19----------------19-17------17-19-|
D-------19/15-17-15-17-------19-19------|
A---------------------------------------|
E---------------------------------------|

G-19-17--------------------------------------|
D--------19-19-15-17-15-17-19-15/12-12/10-15-|
A--------------------------------------------|
E--------------------------------------------|

YET ANOTHER NOTE!!! Instead of doing the slides you could do 19-15 or whatever. I was 
off of sheet music for this and when I sang it it seemed more like a slide than anything 
Mess around with it and send corrections!!!
Comments