Misc Christmas - Angels We Have Heard On High Chords & Tabs

 

Angels We Have Heard On High Chords & Tabs

Misc Christmas Chords & Tabs

Version: 1 Type: Tab 1 rating
1 star 2 stars 3 stars 4 stars 5 stars
comments

Angels We Have Heard On High Tab

E||-----------------------|---------------------|----------------------|
B||------------------1----|--1------------------|-----------------1----|
G||*--2----2----2---------|---------3--2--------|--2----0----2---------|
D||*----------------------|---------------------|----------------------|
A||-----------------------|---------------------|----------------------|
E||-----------------------|---------------------|----------------------|

[ Tab from: http://www.guitartabs.cc/tabs/m/misc_christmas/angels_we_have_heard_on_high_tab.html ]
                                                                         
----------------------||------------------------|-----------------------|
----------------------||---1--------3--1--------|-----------1-----------|
--2------0-----------*||*-----------------3--2--|--3-----------3--2--0--|
------------3--------*||*-----------------------|-----------------------|
----------------------||------------------------|-----------------------|
----------------------||------------------------|-----------------------|


                                                                     
-----------------------|---------------------|----------------------|
-----------------------|---------------------|----------------------|
--2--------3--2--0-----|--0------------------|-------0----2----3----|
--------------------3--|---------------------|--3-------------------|
-----------------------|---------3--3--------|----------------------|
-----------------------|---------------------|----------------------|


Ending 1                Ending 2                                     
---------------------||--------------------|-------------------||
---------------------||--------------------|-------------------||
--2--------0--------*||--2--------0--------|-------------------||
--------------------*||--------------------|--3----------------||
---------------------||--------------------|-------------------||
---------------------||--------------------|-------------------||
Comments