Misc Children - Old Mcdonald Chords & Tabs

 

Old Mcdonald Chords & Tabs

Misc Children Chords & Tabs

Version: 1 Type: Tab 0 ratings
1 star 2 stars 3 stars 4 stars 5 stars
comments

Old Mcdonald Tab

   
Now this has to be one of the most complicated songs I've ever tabbed in my life!
(Hahaha) Actually, it's the first song I've ever tabbed, so technically it is the
hardest too. Well anywho. Enough with my rambling... if it's not correct then
boo-hoo for you. Don't blame me, I play a Bass Clarinet! Plus, it's not nice to
blame girls. :D

|----------------------
|----------------------
|----------------------
|----------------------
|----------------------
|5-5-5-0-2-2-0-9-9-7-7-5

"Old McDonald had a farm e-i-e-i-o..."


|------------------------
|------------------------
|------------------------
|------------------------
|------------------------
|0-5-5-5-0-2-2-0-9-9-7-7-5

"...and on his farm he had some --->Insert Farm Animal Here<--- e-i-e-i-o..."

[ Tab from: http://www.guitartabs.cc/tabs/m/misc_children/old_mcdonald_tab.html ]
|----------------------------------------
|----------------------------------------
|----------------------------------------
|----------------------------------------
|----------------------------------------
|0-5-5-5-0-5-5-5-0-5-5-5-5-5-5-5-5-5-5

"...with a --->Insert Farm Animal Noise Here<--- here,
and a --->Insert Farm Animal Noise Here<--- there.
Here --->Farm Animal Noise<---, there --->Farm Animal Noise<---,
everywhere a --->Farm Animal Noise<---..."

|------------------------
|------------------------
|------------------------
|------------------------
|------------------------
|5-5-5-0-2-2-0-9-9-7-7-5-

"...Old McDonald had a farm, e-i-e-i-o(ooooooooooooo)!!!"

(Repeat as many times as your heart desires)

Now that last note you can hold as long as you want. !:^)

If you didn't notice, this entire song is played on the "E" string. So just
ignore the rest of them b/c you're only going to be using that one.


All complaints go to: i_love_eyebrow_2@hotmail.com
Comments