Misc Cartoons - Spiderman Theme Chords & Tabs

 

Spiderman Theme Chords & Tabs

Misc Cartoons Chords & Tabs

Version: 3 Type: Tab 0 ratings
1 star 2 stars 3 stars 4 stars 5 stars
comments

Spiderman Theme Tab

----------------------------------------------------------------------------
			     Spiderman - misc. cartoons
----------------------------------------------------------------------------
Tabbed by: blink182_rox
I hope you like this song its is my first tab :) enjoy

Tuning: standard 
[ Tab from: http://www.guitartabs.cc/tabs/m/misc_cartoons/spiderman_theme_tab_ver_3.html ]
E|----------|----------|----------------------|
B|----------|----------|----------------------|
G|-------14-|-12-------|-------14-14-12-------|
D|-12-15----|----15-12-|-12-15----------15-12-|
A|----------|----------|----------------------|
E|----------|----------|----------------------|

E|-------------------|------------------------|
B|-------15-13-------|------------------------|
G|-12-15-------15-12-|-------14-14-12---------|
D|-------------------|-12-15----------15-12---|
A|-------------------|------------------------|
E|-------------------|------------------------|

E|--------------------------|
B|--------------------------|
G|-19-18-12-12-10-12--------|
D|-------------------15-12--|
A|--------------------------|
E|--------------------------|

============================================================================
Comments