Misc Cartoons - Spiderman Theme Chords & Tabs

 

Spiderman Theme Chords & Tabs

Misc Cartoons Chords & Tabs

Version: 1 Type: Tab 0 ratings
1 star 2 stars 3 stars 4 stars 5 stars
comments

Spiderman Theme Tab

I cant believe no-one has tabbed this kick ass song! So here it is, best i can get it!

STANDARD TUNING

[Pre Intro thing]
-12--------------------|
-14--------------------|
-----------------------|
-----------------------|
-----------------------|
-----------------------| (Hold this and slide down to the bridge)


[Intro]
-----3-2-1-------------|
---1-------------------|
-2---------------------|
-----------------------|
-----------------------|
-----------------------| (Repeat as song progresses)


[Small tapping]
-22--20--22--20--22--20-|-17-|
------------------------|----|
------------------------|----|
------------------------|----|
------------------------|----|
------------------------|----| (Play this fast, slide on the 17}

[Pre-Solo]
-------5----|-----------|
------------|-----------|
-7p5--------|-7p5-------|
-----7------|-----7-7---|
------------|-----------|
------------|-----------|  {x2} (Again, played fast)

[ Tab from: http://www.guitartabs.cc/tabs/m/misc_cartoons/spiderman_theme_tab.html ]
-----------------------|
-----------------------|
-7p5--7p5--7p5--7p5----|
---------------------7-|
-----------------------|
-----------------------| (Yep, fast too)

[Pre Solo 2]
----------17-|--------------|
-15p13-------|-15p13--------|
-------14----|-------14--14-|
-------------|--------------|
-------------|--------------|
-------------|--------------| {x2} (You guessed it, fast aswell!)


[Solo]
-22--22--22--20--------|
-----------------------|
-----------------------|
-----------------------|
-----------------------|
-----------------------| (Let ring and prepare for next part)


-17--15------------------------------------|
--------17--16--15----15----15-------------|
-------------------17----17---17--14----14-|
-------------------------------------17----|
-------------------------------------------|
-------------------------------------------|
(Play this Real fast!, and slide down on the last 14)

Thats about it! Hope you all like it!
My email addy is: Sexy_Tj_17@hotmail.com  - So get in touch for any questions!
Comments