Misc Cartoons - Spiderman Theme Chords & Tabs

 

Spiderman Theme Chords & Tabs

Misc Cartoons Chords & Tabs

Version: 1 Type: Bass Tab 0 ratings
1 star 2 stars 3 stars 4 stars 5 stars
comments

Spiderman Theme Bass Tab

Title: Spider-Man TV show
Artist: Miscellaneous
Tabbed by: Tycho
Email: Tycho_bech@hotmail.com

[ Tab from: http://www.guitartabs.cc/tabs/m/misc_cartoons/spiderman_theme_btab.html ]
G|-----0--0---------00-------|---1-5---5-1--------0--0-----|
D|---1------1-----1----3-1---|-3-----------3----1------1---|
A|-3----------3-3----------3-|----------------3----------3-|
E|---------------------------|-----------------------------|

G|-----------------------|
D|-55-5-4-3-4-1----------|
A|--------------3--------|
E|-----------------------|
Comments