Misc Cartoons - South Park Theme Chords & Tabs

 

South Park Theme Chords & Tabs

Misc Cartoons Chords & Tabs

Version: 1 Type: Bass Tab 0 ratings
1 star 2 stars 3 stars 4 stars 5 stars
comments

South Park Theme Bass Tab

   
Song:South Park Theme
Band:Primus
Album:?
tabbed by:Kevin

Normal Tunning (E,A,D,G)

G:---------------------------------------------------------------
D:--5/6---------5/6--------5/6-------------------------------
A:--------5/6---------5/6--------5/6--6---------------------
E:---------------------------------------------------------------
[ Tab from: http://www.guitartabs.cc/tabs/m/misc_cartoons/south_park_theme_btab.html ]
(Repeat 3 times)
G:---------------------------------------------------------------
D:--5/6-------5/6-------5/6--------5/6--6-----------------
A:--------5-----------5---------5/6------------6-------------
E:---------------------------------------------------------------

(continued)-same line as above
G:---------------------------------------------------------------
D:--6/7--6/7--7/10--9/10--6/7--6/7--10/8--7---------
A:---------------------------------------------------------------
E:---------------------------------------------------------------


G:---------------------------------------------------------------
D:--5/6-------5/6-----5/6------------------------------------
A:--------5/6-------5--------5/6------------------------------
E:------------------------------------0-------------------------
Comments