Misc Cartoons - Pink Panther Theme Chords & Tabs

 

Pink Panther Theme Chords & Tabs

Misc Cartoons Chords & Tabs

Version: 5 Type: Tab 0 ratings
1 star 2 stars 3 stars 4 stars 5 stars
comments

Pink Panther Theme Tab

Tabbed by: acidvenus
Email: mag31586@hotmail.com
[ Tab from: http://www.guitartabs.cc/tabs/m/misc_cartoons/pink_panther_theme_tab_ver_5.html ]
Tuning: Standard
intro part 1          intro part 2
e|-------------------|  |---------------------------------------------------|
B|-------------------|  |---------------------------------------------------|
G|-------------------|  |---------------------------------------------------|
D|--6/7-8/9----------|  |-8\7-6\5-------------------------------------------|
A|--4/5-6/7-----(7)--|  |-6\5-4\3----(3)------------------------------------|
E|-----------(7)-----|x2|---------(3)---------------------------------------|
repeat intro part 1 and 2 together 2x

e|---0--2h3------------8\7--0h3--7/8-- -------------------------------------|
B|-----------0h4--7/8-------------------------------------------------------|
G|--------------------------------------------------------------------------|
D|--------------------------------------------------------------------------|
A|--------------------------------------------------------------------------|
E|--------------------------------------------------------------------------|

/ slide up
\ slide down
(7) -let ring
h - hammer on
p - pull off
Comments