Misc Cartoons - Beck - Moon On The Water Chords & Tabs

 

Beck - Moon On The Water Chords & Tabs

Misc Cartoons Chords & Tabs

Version: 1 Type: Tab 0 ratings
1 star 2 stars 3 stars 4 stars 5 stars
comments

Beck - Moon On The Water Tab

   
Beck...
Anime Singers: Kyouki and Maho
Live Singers: Sowelu

Verse:
(brush chords)
     E                          Asus2
|--0-----0--------------------0--------------|
|--0-------0------------------0-----0--------|
|--1---------3----------------2--------------|
|--2--------------------------2---2---2-1----|
|--2---2----------------------0--------------|
|--0--------------------------0--------------|
[ Tab from: http://www.guitartabs.cc/tabs/m/misc_cartoons/beck_moon_on_the_water_tab.html ]
   C#m        B           Asus2 
|------0------------0-------------0----------|
|------0------------0---------------0--------|
|------4------------4-----------------2------|
|----2------------2-------------2------------|
|--4------------2-------------0--------------|
|--------------------------------------------|


Chorus:

        C#m     Asus2      E        B
|--------4--------0--------0--------2--------|
|--------5--------0--------0--------4--------|
|--------6--------2--------1--------4--------|
|--------6--------2--------2--------4--------|
|--------4--------0--------2--------2--------|
|--------------------------0-----------------|

       F#m7              Asus2
|--------4-----------------0-----------------|
|--------5-----------------0-----------------|
|--------6-----------------2-----------------|
|--------6-----------------2-----------------|
|--------4-----------------0-----------------|
|--------------------------------------------|
Comments