Misc Cartoons - Beck - Hit In The Usa Chords & Tabs

 

Beck - Hit In The Usa Chords & Tabs

Misc Cartoons Chords & Tabs

Version: 1 Type: Bass Tab 0 ratings
1 star 2 stars 3 stars 4 stars 5 stars
comments

Beck - Hit In The Usa Bass Tab

Hit in the USA by the Beat Crusaders 
the theme song to beck, an anime series about a band trying to make it in japan

                     Hit in the USA                                  


                                                                  Beat Crusaders
Bass
sophisticated_ego@yahoo.com



                                                           
G||------|------|------|------|------|------|------|------|
D||------|------|------|------|------|------|------|------|
A||------|------|------|------|------|------|------|------|
E||------|------|------|------|------|------|------|------|


                                                                             
------------------------|-------------------------|-------------------------|
------------------------|-------------------------|-------------------------|
--3----x----------------|-------------------------|-------------------------|
----------3--3----x--1--|--x--1--x--1--1/-3--3/---|--5----5--5--5--5--5--5--|


                                                                             
--------------------|----|----|----|----|----|----|----|--------------------|
--------------------|----|----|----|----|----|----|----|--------------------|
--------------------|----|----|----|----|----|----|----|--------------------|
------------5--8/---|----|----|----|----|----|----|----|------------5--8/---|


                                                                            
------------------------|-------------------------|------------------------|
------------------------|-------------------------|------------------------|
--3----x----------------|-------------------------|--3----x----------------|
----------3--3----x--1--|--x--1--x--1--1/-3----x--|----------3--3----x--1--|


                                                                             
-------------------------|------------------------|-------------------------|
-------------------------|------------------------|-------------------------|
-------------------------|--3----x----------------|-------------------------|
--x--1--x--1--1/-3----x--|----------3--3----x--1--|--x--1--x--1--1/-3----x--|


                                                                        
-------------------------|--------------------|------------------------|
-------------------------|--------------------|------------------------|
-------------------------|--------------------|--3----x----------------|
--5----5--5--5--5--5--5--|------------5--8/---|----------3--3----x--1--|


                                                                             
-------------------------|------------------------|-------------------------|
-------------------------|------------------------|-------------------------|
-------------------------|--3----x----------------|-------------------------|
--x--1--x--1--1/-3--3/---|----------3--3----x--1--|--x--1--x--1--1/-3--3/---|


                                                                                
--------------------------|--------------------------|-------------------------|
--------------------------|--------------------------|-------------------------|
--3--3--3--3--------------|--------------------------|-------------------------|
--------------3--3--3--3--|--1--1--1--1--1/-3--3--3--|--5----5--5--5--5--5--5--|


                                                                        
--------------------|------------------------|-------------------------|
--------------------|------------------------|-------------------------|
--------------------|--3----x----------------|-------------------------|
------------5--8/---|----------3--3----x--1--|--x--1--x--1--1/-3----x--|


                                                                            
------------------------|-------------------------|------------------------|
------------------------|-------------------------|------------------------|
--3----x----------------|-------------------------|--3----x----------------|
----------3--3----x--1--|--x--1--x--1--1/-3----x--|----------3--3----x--1--|


                                                                         
-------------------------|-------------------------|--------------------|
-------------------------|-------------------------|--------------------|
-------------------------|-------------------------|--------------------|
--x--1--x--1--1/-3----x--|--5----5--5--5--5--5--5--|------------5--8/---|


                                                                            
------------------------|-------------------------|------------------------|
------------------------|-------------------------|------------------------|
--3----x----------------|-------------------------|--3----x----------------|
----------3--3----x--1--|--x--1--x--1--1/-3----x--|----------3--3----x--1--|


                                                                             
-------------------------|------------------------|-------------------------|
-------------------------|------------------------|-------------------------|
-------------------------|--3----x----------------|-------------------------|
--x--1--x--1--1/-3----x--|----------3--3----x--1--|--x--1--x--1--1/-3----x--|


                                                                        
-------------------------|--------------------|------------------------|
-------------------------|--------------------|------------------------|
-------------------------|--------------------|--3----x----------------|
--5----5--5--5--5--5--5--|------------5--8/---|----------3--3----x--1--|


                                                                             
-------------------------|------------------------|-------------------------|
-------------------------|------------------------|-------------------------|
-------------------------|--3----x----------------|-------------------------|
--x--1--x--1--1/-3--3/---|----------3--3----x--1--|--x--1--x--1--1/-3--3/---|


                                                                
--------------------------|--------------------------|----|----|
--------------------------|--------------------------|----|----|
--3--3--3--3--------------|--------------------------|----|----|
--------------3--3--3--3--|--1--1--1--1--1/-3--3--3--|----|----|


                                                      
--------------------------|--------------------------|
--------------------------|--------------------------|
--3--3--3--3--3--3--3--3--|--------------------------|
--------------------------|--6--6--6--6--6--6--6--6--|

[ Tab from: http://www.guitartabs.cc/tabs/m/misc_cartoons/beck_hit_in_the_usa_btab.html ]
                                                                                
--------------------------|--------------------------|-------------------------|
--------------------------|--------------------------|-------------------------|
--------------------------|--------------------------|--3--3--3--6--6--6--5/---|
--4--4--4--4--4--4--4--4--|--3--3--3--3--6--6--6--6--|-------------------------|


                                                                            
-------------------------|--------------------------|----------------------|
-------------------------|--------------------------|----------------------|
--5--5--5-----------8/---|--------------------------|----------------------|
-----------6--6--6-------|--4--4--4--6--6--6--8--8--|--4--4------4--4------|


                                                            
-------------------|----|----|----|------------------------|
-------------------|----|----|----|------------------------|
-------------------|----|----|----|--3----x----------------|
--8/---------------|----|----|----|----------3--3----x--1--|


                                                                             
-------------------------|------------------------|-------------------------|
-------------------------|------------------------|-------------------------|
-------------------------|--3----x----------------|-------------------------|
--x--1--x--1--1/-3--3/---|----------3--3----x--1--|--x--1--x--1--1/-3--3/---|


                                                                          
--------------------------|--------------------------|-------------------|
--------------------------|--------------------------|-------------------|
--3--3--3--3--------------|--------------------------|-------------------|
--------------3--3--3--3--|--1--1--1--1--1/-3--3--3--|--4----------------|


                                                                      
-------------------|-------------------|--------------|--------------|
-------------------|-------------------|--------------|--------------|
-------------------|-------------------|--------------|--------------|
--6----------------|--8/---------------|--------------|--------------|


                                                                           
--------------|--------------|--------------|--------------|--------------|
--------------|--------------|--------------|--------------|--------------|
--------------|--------------|--------------|--------------|--------------|
--------------|--------------|--------------|--------------|--------------|


                                                                                
-------------------|-------------------|-------------------|-------------------|
-------------------|-------------------|-------------------|-------------------|
--3----------------|-------------------|-------------------|-------------------|
-------------------|--3----------------|--1----------------|--3----------------|


                                                                               
-------------------|-------------------|-------------------|------------------|
-------------------|-------------------|-------------------|------------------|
--3----------------|-------------------|-------------------|------------------|
-------------------|--3----------------|--1----------------|------------------|


                                                                            
------------------------|-------------------------|------------------------|
------------------------|-------------------------|------------------------|
--4----x----------------|-------------------------|--4----x----------------|
----------4--4----x--2--|--x--2--x--2--2/-4--4----|----------4--4----x--2--|


                                                                             
-------------------------|------------------------|-------------------------|
-------------------------|------------------------|-------------------------|
-------------------------|--4----x----------------|-------------------------|
--x--2--x--2--2/-4--4----|----------4--4----x--2--|--x--2--x--2--2/-4--4----|


                                                                              
------------------------|-------------------------|--------------------------|
------------------------|-------------------------|--------------------------|
--4----x----------------|-------------------------|--4--4--4--4--------------|
----------4--4----x--2--|--x--2--x--2--2/-4--4----|--------------4--4--4--4--|


                                                      
--------------------------|--------------------------|
--------------------------|--------------------------|
--------------------------|--4--4--4--4--------------|
--2--2--2--2--2/-4--4--4--|--------------4--4--4--4--|


                                                      
--------------------------|--------------------------|
--------------------------|--------------------------|
--------------------------|--4--4--4--4--------------|
--2--2--2--2--2/-4--4--4--|--------------4--4--4--4--|


                                                      
--------------------------|--------------------------|
--------------------------|--------------------------|
--------------------------|--4--4--4--4--------------|
--2--2--2--2--2/-4--4--4--|--------------4--4--4--4--|


                                                      
--------------------------|--------------------------|
--------------------------|--------------------------|
--------------------------|--4--4--4--4--------------|
--2--2--2--2--2/-4--4--4--|--------------4--4--4--4--|


                                                      
--------------------------|--------------------------|
--------------------------|--------------------------|
--------------------------|--4--4--4--4--------------|
--2--2--2--2--2/-4--4--4--|--------------4--4--4--4--|


                                                      
--------------------------|--------------------------|
--------------------------|--------------------------|
--------------------------|--4--4--4--4--------------|
--2--2--2--2--2/-4--4--4--|--------------4--4--4--4--|


                                                                   
--------------------------|-------------------|-------------------|
--------------------------|-------------------|-------------------|
--------------------------|-------------------|-------------------|
--2--2--2--2--2/-4--4--4--|--5----------------|--7----------------|


                                              
-------------------|-------------------|----||
-------------------|-------------------|----||
--4----------------|--6----------------|----||
-------------------|-------------------|----||
Comments