Misc Cartoons - Aladdin Theme Chords & Tabs

 

Aladdin Theme Chords & Tabs

Misc Cartoons Chords & Tabs

Version: 1 Type: Tab 0 ratings
1 star 2 stars 3 stars 4 stars 5 stars
comments

Aladdin Theme Tab

A whole new world- Aladdin soundtrack  			Transcribed by Matt Lefler
I you put this into microsoft word it will fix the legnth problem

e|----------------------------------------------------------------|
B|-3-1-4-3-----3-1-4-3---3-4-3-1--1-0-3-1---3-1-0-1---0-3-1-(5)2nd|
G|---------3-----------3------------------4---------2-----(2-0)1st|
D|-----------3----------------------------------------------------|
A|----------------------------------------------------------------|
E|----------------------------------------------------------------|

|-----5-3-5-3-----5-3--------------3-7-5-3---5-7-3--------------------|
|-5-6---------5-6-----3-6-5-5-5-6---------5-------3-6-5-1-3-6-5-1-0-1|
|---------------------------------------------------------------------|
|---------------------------------------------------------------------|
|---------------------------------------------------------------------|
|---------------------------------------------------------------------|

|----------------------------------------------------------------|
|-3-1-4-3-----3-1-4-3---3-4-3-1--1-0-3-1---3-1-0-1---0-3-1-(5)2nd|
|---------3-----------3------------------4---------2-----(2-0)1st|
|-----------3----------------------------------------------------|
|----------------------------------------------------------------|
|----------------------------------------------------------------|
[ Tab from: http://www.guitartabs.cc/tabs/m/misc_cartoons/aladdin_theme_tab.html ]
|-----5-3-5-3-----5-3--------------3-7-5-3---5-7-3-------------------------------------|
|-5-6---------5-6-----3-6-5-5-5-6---------5-------3-6-5-1-3-6-5-1-0-1-3-6-5-11-9-14-12|
|--------------------------------------------------------------------------------------|
|--------------------------------------------------------------------------------------|
|--------------------------------------------------------------------------------------|
|--------------------------------------------------------------------------------------|

|-------------------------------------------------------------------------------------------|
|-12-10-13-12-8-3-12-10-13-12-8-12-13-12-10-10-9-12-10-7-10-8-7-8-5-7-10-8-(3-1)1st-(12)2nd|
|-------------------------------------------------------------------------------------------|
|-------------------------------------------------------------------------------------------|
|-------------------------------------------------------------------------------------------|
|-------------------------------------------------------------------------------------------|

|-----5-3-5-3-----5-3--------------3-7-5-3---5-7-3-------------------------------------|
|-5-6---------5-6-----3-6-5-5-5-6---------5-------3-6-5-1-3-6-5-1-0-1-----------------|
|--------------------------------------------------------------------------------------|
|--------------------------------------------------------------------------------------|
|--------------------------------------------------------------------------------------|
|--------------------------------------------------------------------------------------
Comments