Misc Artists - Rapture Chords & Tabs

 

Rapture Chords & Tabs

Misc Artists Chords & Tabs

Version: 1 Type: Tab 0 ratings
1 star 2 stars 3 stars 4 stars 5 stars
comments

Rapture Tab

Rapture - Jesse Cook
                                                             
E||----4----4----4---6--8--|----7----7----7----8--10--11----|
B||------------------------|--------------------------------|
G||--5----5----5-----7--8--|--7----7----7------8--10--12----|
D||------------------------|--------------------------------|
A||------------------------|--------------------------------|
E||------------------------|--------------------------------|

[ Tab from: http://www.guitartabs.cc/tabs/m/misc_artists/rapture_tab.html ]
                                  
--8----11----10----8----|--3----||
------------------------|-------||
--8----12----10----8----|--3----||
------------------------|-------||
------------------------|-------||
------------------------|-------||

This part of the song was actually tabbed by Dan Lemmon, a fellow guitar
club member at an Orleans (Canada) High School.  I did the rest, problem
is, I havn't put it on paper yet.  In a few weeks, it should be here as well.
It's a really beautiful song, one that is fun to play, well, unless you
have the job of doing the chord progression (which will also be added later)
which hurts your hands a bit.  

Enjoy!
Thanks Dan!

Jason Lemieux
Comments