Misc Artists - Possibilities Low Chords & Tabs

 

Possibilities Low Chords & Tabs

Misc Artists Chords & Tabs

Version: 1 Type: Tab 0 ratings
1 star 2 stars 3 stars 4 stars 5 stars
comments

Possibilities Low Tab

   
this is a song that i made up i am 13 years old. THIS SONG IS FAST AND USES DISTORTION. H=HAMER-ON P=PULLOFF S=SLIDE T=TRILLING BUP=BEND UP

intro 1... repeat 3 times
E|-1212h14p12s1010h12p10s88h10p8s7-|
B|----------------------------------------------|
G|----------------------------------------------|
D|----------------------------------------------|
A|----------------------------------------------|
E|----------------------------------------------|

intro 2... repeat 3 times then go into chords

E|----------------------------------------------|
B|----------------------------------------------|
G|-99h11p9s77h9p7s55h7p5s4----------------------|
D|----------------------------------------------|
A|----------------------------------------------|
E|----------------------------------------------|

CHORDS... REPEAT CHORD PROGRESSION 4 TIMES

STRUM D POWER CHORD 6 TIMES, THEN STRUM B FLAT 5TH POWER CHORD 6 TIMES, THEN STRUM F POWER CHORD 6 TIMES, AND THEN STRUM C POWER CHORD 6 TIMES.

 
intro 1... repeat 3 times
E|-1212h14p12s1010h12p10s88h10p8s7-|
B|----------------------------------------------|
G|----------------------------------------------|
D|----------------------------------------------|
A|----------------------------------------------|
E|----------------------------------------------|


intro 2... repeat 3 times then go into chords

E|----------------------------------------------|
B|----------------------------------------------|
G|-99h11p9s77h9p7s55h7p5s4----------------------|
D|----------------------------------------------|
A|----------------------------------------------|
E|----------------------------------------------|

CHORDS... REPEAT CHORD PROGRESSION 4 TIMES

STRUM D POWER CHORD 6 TIMES, THEN STRUM B FLAT 5TH POWER CHORD 6 TIMES, THEN STRUM F POWER CHORD 6 TIMES, AND THEN STRUM C POWER CHORD 6 TIMES.


SOLO
[ Tab from: http://www.guitartabs.cc/tabs/m/misc_artists/possibilities_low_tab.html ]
E|---------12-10--------------------------------|
B|--8-10S12-----12 10S8-------------------------|
G|-9-------------------9------------------------|
D|----------------------------------------------|
A|----------------------------------------------|
E|----------------------------------------------|



E|---------12-10S8------------------------------|
B|--8-10S12-------------------------------------|
G|---9------------9-----------------------------|
D|-9--------------------------------------------|
A|----------------------------------------------|
E|----------------------------------------------|




E|-T15T14T12T-T15T14T12-T15T14T12-T15T14T12-17BUP|
B|-----------------------------------------------|
G|-----------------------------------------------|
D|-----------------------------------------------|
A|-----------------------------------------------|
E|-----------------------------------------------|



E|-----------------------------------------------|
B|-T15T14T12T-T15T14T12-T15T14T12-T15T14T12-17BUP|
G|-----------------------------------------------|
D|-----------------------------------------------|
A|-----------------------------------------------|
E|-----------------------------------------------|

SOLO END


PLAY CLEAN


intro 1... repeat 3 times
E|-1212h14p12s1010h12p10s88h10p8s7--------------|
B|----------------------------------------------|
G|----------------------------------------------|
D|----------------------------------------------|
A|----------------------------------------------|
E|----------------------------------------------|
											

intro 2... repeat 3 times, THEN END WITH A D CHORD.

E|----------------------------------------------|
B|----------------------------------------------|
G|-99h11p9s77h9p7s55h7p5s4-------------7--------|
D|-------------------------------------7------- |
A|-------------------------------------5--------|
E|----------------------------------------------|

Comments