Misc Artists - Play This You Are Gonna Love It Chords & Tabs

 

Play This You Are Gonna Love It Chords & Tabs

Misc Artists Chords & Tabs

Version: 1 Type: Tab 0 ratings
1 star 2 stars 3 stars 4 stars 5 stars
comments

Play This You Are Gonna Love It Tab

   
Transcribed by: ESTEBAN
Email: ecnona@hotmail.com

acordes.musicbox.com.ar

hello from argentina!!!
mail me for more blues or songs from this side of the world 
or just to make friends.

Preparense para el Mundial de Futbol!!!!! 

------------------------------------------------------------------------------
This is a blues riff i've seen on guitartabs.cc and made a few changes 
Plus added and ending. HOpe you don't mind:

part a 			  part b			part c			
-2/3-------3-2/3---------|-7/8--------8-7/8-----------|-9/10----------10------
-2/3-------3-2/3---------|-7/8--------8-7/8-----------|-9/10----------10------
-----5-3/4-------5-3/4---|-----10-8/9-------10-8/9----|------12-10/11---------
-----------------------5-|-------------------------10-|-----------------------
-------------------------|----------------------------|-----------------------
-------------------------|----------------------------|-----------------------

part d			  ending                                                      
-7/8--------8-2/3--------|-----------------3----------------------------------
-7/8--------8-2/3--------|-----------------3----------------------------------
-----10-8/9-------5-3/4--|-----3-5/7-5-3---4-----or--------3-5/6-5-3---4------
------------------------5|-3/5-------------------------3/5-------------5------
-------------------------|---------------------------------------------5------
-------------------------|----------------------------------------------------

Play: a-a-b-a-c-d-ending                                                                         

------------------------------------------------------------------------------

This I made it last week:
[ Tab from: http://www.guitartabs.cc/tabs/m/misc_artists/play_this_you_are_gonna_love_it_tab.html ]
Part a 			      Part b		       Part c
----0--0---0-----0--0-----0--|---5--3---3-----5--5---5|----7-6---5----5-3---3-
-------3---3--------3/5---5--|------0---0-------------|-----------------------
-0h1-----0----0h1-------0----|5/6-----4----5/6---6-6--|7/8---5-6---5/6--4-4---
-----------------------------|------------------------|-----------------------
-----------------------------|------------------------|-----------------------
-----------------------------|------------------------|-----------------------
                                                                              
Play: a-a-b-a-c-a (Finish in G)
                                                                              
------------------------------------------------------------------------------

I'm proud of this one:

-----------------------|-------------------------|----------------------------
---------6-6---6---6-6-|-----------6-6---6---6-6-|----------------------------
---------5-5---5---5-5-|-----------5-5---5---5-5-|-----------3-3---3---3-3----
---------7-7---7---7-7-|-0---------7-7---7---7-7-|-----------3-3---3---3-3----
---3-4-5-----5---5-----|---0-3-4-5-----5---5-----|-5---------5-5---5---5-5----
-5---------------------|-------------------------|---0-1-2-3-----3---3--------
                                                                              

-------------------------|-------------------|--------------------------------
-----------6-6---6---6-6-|-------------------|--------------6-6---6----13-13--
-----------5-5---5---5-5-|-----------5-5---5-|---3-3---3----5-5---5----12-12--
-----------7-7---7---7-7-|-----------5-5---5-|---3-3---3----7-7---7----11-11--
-----3-4-5-----5---5-----|-5---------7-7---7-|---5-5---5--5-----5------12-12--
-3-5---------------------|---0-3-4-5-----5---|-3-----3------------------------
                                                                              

------------------------------------------------------------------------------
-5----------------------------------------------------------------------------
-5----------------------------------------------------------------------------
-3----------------------------------------------------------------------------
-5----------------------------------------------------------------------------
------------------------------------------------------------------------------
arpegio                                                                              

------------------------------------------------------------------------------
                                                                         

Comments