Misc Artists - Moving Along Chords & Tabs

 

Moving Along Chords & Tabs

Misc Artists Chords & Tabs

Version: 1 Type: Tab 0 ratings
1 star 2 stars 3 stars 4 stars 5 stars
comments

Moving Along Tab

I hope you guys like this song , its best played not to fast not to 
slow but it doesnt matter , cause I think it sounds good anyway , just 
enjoy it cause it took me about a week to make this song before i was 
to put it out there for you guys to play . If you have any comments email
me at dasupaman01@aol.com . Oh and if someone could figure out a nice 
strumming pattern to this and email it to me it would be greatly 
appreciated . Thank You .

Standard Tuning (EADGBE)
[ Tab from: http://www.guitartabs.cc/tabs/m/misc_artists/moving_along_tab.html ]
-0---2h3-2---0-------3---3h5p3-2-0-2/3--3p2-0---0-
-----------------------3----------------------3---
--------------------------------------------------
-2-2-----2-2---2---2-----0-----0---0--------------
-----------------3------------------------------3-
--------------------------------------------------


-0---2h3-5---3p2-0---------3---5p3-3h5-2h3-2h3-0--
-----------------------------0--------------------
---------------------3----------------------------
-2-2-----0-0-----------0-----------------------2--
-------------------------2-----0-------2----------
-------------------3------------------------------
Comments