Misc Artists - Low Solo Chords & Tabs

 

Low Solo Chords & Tabs

Misc Artists Chords & Tabs

Version: 1 Type: Tab 0 ratings
1 star 2 stars 3 stars 4 stars 5 stars
comments

Low Solo Tab

   
outro solo:


C5          G5        F5           Eb               Ab5                Bb5
-20-------v19--b20-|-20---20--19--20---15----15-|-v16----15h16p15----v15------
-------------------|----------------------16----|-----------------18----------
-------------------|----------------------------|-----------------------------
-------------------|----------------------------|-----------------------------
-------------------|----------------------------|-----------------------------
-------------------|----------------------------|-----------------------------
  
          C5                                                         Bb5 
----15-|-16--15--16p15------------------15------------------------------|
-18----|---------------18-16-----16-18-----18-16--18-15-16--18-16-15-16-|
-------|---------------------17-----------------------------------------|
-------|----------------------------------------------------------------|
-------|----------------------------------------------------------------|
-------|----------------------------------------------------------------|


C5                                     G5                F5     Eb
-------------------------------------|-20------v19-b20-|-20--19-20--15----15|
-b15-b15----15-16-18-15-16-18-15-----|-----------------|---------------16---|
---------17----------------------v17-|-----------------|--------------------|
-------------------------------------|-----------------|--------------------|
-------------------------------------|-----------------|--------------------|
-------------------------------------|-----------------|--------------------|


  Ab                 Bb5             C5
-v16----15h16p15----v15------------|-15-16-15h16p15-------15-------15---------
-----------------18-------15-16-18-|----------------18-16----16-18----18p16---
-----------------------------------|------------------------------------------
-----------------------------------|------------------------------------------
-----------------------------------|------------------------------------------
-----------------------------------|------------------------------------------

[ Tab from: http://www.guitartabs.cc/tabs/m/misc_artists/low_solo_tab.html ]
--------------------15-16p15-------15--------|-15-----------------------------
-18--16----15-16-18----------18p16-----16h18-|----18-16----15-16/18-15--------
--------17-----------------------------------|----------17-------------17-----
---------------------------------------------|--------------------------------
---------------------------------------------|--------------------------------
---------------------------------------------|--------------------------------


                                                    G5        F5          Eb5
----------------------------------------|-20-------v19--b20-|-20--20--19------
-16-15----------------------------------|-------------------|------------b15--
-------17-15-17---15p13h15p13h15p13-----|-------------------|-----------------
------------------------------------v12-|-------------------|-----------------
----------------------------------------|-------------------|-----------------
----------------------------------------|-------------------|-----------------


          Ab5           Bb5          C5
-------|---------------------------|-------20--v20------20-15-20--19-20-|
-15----|-b15-----15----b18------16-|----16------------------------------|
----17-|------------17-------------|-17---------------------------------|
-------|---------------------------|------------------------------------|
-------|---------------------------|------------------------------------|
-------|---------------------------|------------------------------------|


-15--18-16-18--15-16p15----15-------15----15----15----|
------------------------18----16-18----16----16----16-|
------------------------------------------------------|
------------------------------------------------------|
------------------------------------------------------|
------------------------------------------------------|

          G          F5             Eb5                 Ab5
-20------v19--b20--|-20-----20--19--20--15------15--|--v16------15h16p15------
-------------------|------------------------16------|--------------------18---
-------------------|--------------------------------|-------------------------
-------------------|--------------------------------|-------------------------
-------------------|--------------------------------|-------------------------
-------------------|--------------------------------|-------------------------

  Bb5                      C5
-v15-----------------15-|-b18-v18-------15------15--------|
------------------18----|------------------16------16-----|
------------------------|-----------------------------v17-|
------------------------|---------------------------------|
------------------------|---------------------------------|
------------------------|---------------------------------|


---------------------------------------------|
---------------------------------------------|
-15-17--17-15--------------------------------|
--------------17-16--15--15--15-13--15-13----|
------------------------------------------15-|
---------------------------------------------|

Comments