Misc Artists - I Dont Get It Chords & Tabs

 

I Dont Get It Chords & Tabs

Misc Artists Chords & Tabs

Version: 1 Type: Tab 0 ratings
1 star 2 stars 3 stars 4 stars 5 stars
comments

I Dont Get It Tab

-----------------------------------------------------
I wrote this song about my stupid choras teacher who
always tryed to sound smart by using big words and 
using "heart", "sole", and "power." No one knew what 
the hell he was talking about. Anyway, here it is.
-----------------------------------------------------

I Don't Get It
Ted Rogers
????

standard tuning
punk-type distortion

(palm-muted)
1---------------------------------------------------------------------------------|
2---------------------------------------------------------------------------------|
3-5-5-5-5-5-5-5-5-5-5-5-5-5-5-5-5-5-5-5-------------------------------------------|
4-5-5-5-5-5-5-5-5-5-5-5-5-5-5-5-5-5-5-5---3-3-3-3-3-3-3-3-3-3-3-3-3-3-3-3-3-3-3-3-|
5-3-3-3-3-3-3-3-3-3-3-3-3-3-3-3-3-3-3-3---3-3-3-3-3-3-3-3-3-3-3-3-3-3-3-3-3-3-3-3-|
6-----------------------------------------1-1-1-1-1-1-1-1-1-1-1-1-1-1-1-1-1-1-1-1-| 
  It's ambiguous in an undecerning way / its illegitamate to what we must convay
[ Tab from: http://www.guitartabs.cc/tabs/m/misc_artists/i_dont_get_it_tab.html ]
1----------------------------------------------------------------------------------|
2----------------------------------------------------------------------------------|
3-5-5-5-5-5-5-5-5-5-5-5-5-5-5-5-5-5-5-5--------------------------------------------|
4-5-5-5-5-5-5-5-5-5-5-5-5-5-5-5-5-5-5-5----3-3-3-3-3-3-3-3-3-3-3-3-3-3-3-3-3-3-3-3-|
5-3-3-3-3-3-3-3-3-3-3-3-3-3-3-3-3-3-3-3----3-3-3-3-3-3-3-3-3-3-3-3-3-3-3-3-3-3-3-3-|
6------------------------------------------1-1-1-1-1-1-1-1-1-1-1-1-1-1-1-1-1-1-1-1-|
We must use our hearts with great accuracy / I don't know- it's all just Sh** to me!

(stop the palm mute) (just let chord ring)
1------------------------------------------------------------
2------------------------------------------------------------
3--5---------------------------------------------------------
4--5--------------------------3------------------------------
5--3--------------------------3------------------------------
6-----------------------------1------------------------------
What are you talkin about? / Why don't you speack in english?

1--------------------------------------------------------------------|
2--------------------------------------------------------------------|
3--5--5-5-5-5-5-5-5-5-5-5-5-5-5-5-5----------------------------------|
4--5--5-5-5-5-5-5-5-5-5-5-5-5-5-5-5-3--3-3-3-3-3-3-3-3-3-3-3-3-3-3-3-|
5--3--3-3-3-3-3-3-3-3-3-3-3-3-3-3-3-3--3-3-3-3-3-3-3-3-3-3-3-3-3-3-3-|
6-----------------------------------1--1-1-1-1-1-1-1-1-1-1-1-1-1-1-1-|
  you ask me why I don't get it /    cuz your speackin in bull sh**

well that's all for now!  any ideas, comments, complaints, ect. email me at just4gotmine@skateboard.com
Comments