Misc Artists - Hello Mary Chords & Tabs

 

Hello Mary Chords & Tabs

Misc Artists Chords & Tabs

Version: 1 Type: Tab 0 ratings
1 star 2 stars 3 stars 4 stars 5 stars
comments

Hello Mary Tab

|----------------------------------------------------

Dave HErrick
Hello Mary

|------------8-10p8--8-10-10^p8-10---10^p8-10-8------
|-9-9-9-8/9--------9---------------9-----------------
|----------------------------------------------------
|----------------------------------------------------
|----------------------------------------------------

[ Tab from: http://www.guitartabs.cc/tabs/m/misc_artists/hello_mary_tab.html ]
|----------------------------------------------------
|--10^p8-10-8-10^-10^----1-101810-8/(15)-------------
|----------------------------------------------------
|----------------------------------------------------
|----------------------------------------------------
|----------------------------------------------------


 
|-15^--15--121512------------------------------------
|-----------------15-15p12----12-15^p12----12--------
|--------------------------14-----------14-----------
|----------------------------------------------------
|----------------------------------------------------
|----------------------------------------------------

|---------------------------------------
|---------------------------------------
|---------------------------------------
|2--5----6-------3----------------------
|2--3--3-6---------------7--2-----------
|0--3--4-4--1-----------------5--3---3p0
Comments