Misc Artists - Give Me That Chords & Tabs

 

Give Me That Chords & Tabs

Misc Artists Chords & Tabs

Version: 1 Type: Tab 0 ratings
1 star 2 stars 3 stars 4 stars 5 stars
comments

Give Me That Tab

   
kapo on the 3rd fret


e-0---       --2------        ---3----     ---0-----
b---2-       ----0---         -----0--     -----3---
g----0-      ------0-         -------0      ------0-
d----
a----
e----


[ Tab from: http://www.guitartabs.cc/tabs/m/misc_artists/give_me_that_tab.html ]
e--6---   -----                      ------                                -5--
d- 5--     -6----   ---5---    ---6---      ---5--            --5---
g-----    --5----   ---5--    ----5----     ---5--            --5--
d-----    ------                -------               5----              ---5--- 
a--6---  ---6---              ----4---              --6----                 6---
e--6---  ---6---              --------               -5---


chorus


e--6-----  
d--5--     ---6---
g          ---5--
d
a--6----   ---6---
e--6---    ---6---


Comments