Misc Artists - Experience Chords & Tabs

 

Experience Chords & Tabs

Misc Artists Chords & Tabs

Version: 1 Type: Tab 0 ratings
1 star 2 stars 3 stars 4 stars 5 stars
comments

Experience Tab

   
THE CHORDS ARE SIMPLE AND SO CHECK IT OUT
    G        E-     Amin      Bb7(2x)
----------------------1-------------------------------------------
----1---------1------------------2----------------------------------
----------------------2-------------------------------------------
--------------2-------2----------1----------------------------------
----2---------2----------------------------------------------------
----3----------------------------1---------------------------------


[ Tab from: http://www.guitartabs.cc/tabs/m/misc_artists/experience_tab.html ]
    G        E-     Amin      Bb7(2x)
---------------------- 1-------------------------------------------
----1---------1------------------ 2----------------------------------
---------------------  -2-------------------------------------------
--------------2-------  2----------1----------------------------------
----  2---------2----------------------------------------------------
---- 3----------------------------   1---------------------------------

THE END: A5 G5 C5
-----7--------------5---------4------4------------------------------------
 --------------------------------------------------------------------
-----7--------------5---------4------4---------------------------------------------------------------------------------------------------------
 --------------------------------------------------------------------
---------------------------------------------------------------------
THIS IS THE SONG AND ITS THE BEST EVER
Comments