Misc Artists - Egyptian Song Chords & Tabs

 

Egyptian Song Chords & Tabs

Misc Artists Chords & Tabs

Version: 1 Type: Tab 2 ratings
1 star 2 stars 3 stars 4 stars 5 stars
comments

Egyptian Song Tab

Here it is!


-----------------------------------------3--------------------
------0--2--3--2--0------0--2--3------------3--2--0--------
--------------------------------------------------------------
--------------------------------------------------------------
--------------------------------------------------------------
---------------------------------------------------------------
[ Tab from: http://www.guitartabs.cc/tabs/m/misc_artists/egyptian_song_tab.html ]
--------------------------------------------------------------------------------------
----0--2--3--2--0--------0--2--3--3--3--3--3--2--0-------------------------
--------------------------------------------------------------------------------------
-------------------------------------------------------------------------------------
-------------------------------------------------------------------------------------
------------------------------------------------------------------------------------

-------------------------------------------3----------------------------------------------
------0--2--3--2--0-------0--2--3-------------3--2--0-----------------------------------
--------------------------------------------------------------------------------------
-----------------------------------------------------------------------------------------
-----------------------------------------------------------------------------------------
----------------------------------------------------------------------------------------




Well there's the song.  Play it how ever you want. the timing is obvious.
Good luck to Zak L. who is graduating 5-20-02!  Also cheese to Christina.
Hi Alea C.

-Steve-
Comments