Misc Artists - Easy Song Sounds Great Chords & Tabs

 

Easy Song Sounds Great Chords & Tabs

Misc Artists Chords & Tabs

Version: 1 Type: Tab 1 rating
1 star 2 stars 3 stars 4 stars 5 stars
comments

Easy Song Sounds Great Tab

#----------------------------------PLEASE NOTE--------------------------------#
#This file is the author's own work and represents their interpretation of the#
#song. You may only use this file for private study, scholarship, or research.#
#-----------------------------------------------------------------------------#
#-- File created with Instab - http://www.pconline.com/~smcarey/instab.html --#
#-----------------------------------------------------------------------------#

Author/Artist: Bob Brought The House down
Title: Easy song, sounds great
Album: Virgin Pyjama Party
Transcribed by: Craig Neep
Email: craigneep@hotmail.com

For a free 5 track CD just email the above address!!! How can u resist?
[ Tab from: http://www.guitartabs.cc/tabs/m/misc_artists/easy_song_sounds_great_tab.html ]
------------------------------------------------------------------------------
------------------------------------------------------------------------------
----7----7--------------------------------------------------------------------
-55---55------7----7----------------------------------------------------------
-----------55---55------7----7------------------------------------------------
---------------------55---55--------------------------------------------------
   Intro (x4)                                                                 

------------------------------------------------------------------------------
------------------------------------------------------------------------------
----7-------------------------------------------------------------------------
-5--7--7--10------------------------------------------------------------------
-5--5--7--10------------------------------------------------------------------
-3-----5--8-------------------------------------------------------------------
    Verse (x2)                                                                

------------------------------------------------------------------------------
------------------------------------------------------------------------------
----------9--7----------------------------------------------------------------
-10101010-9--7----------------------------------------------------------------
-10101010-7--5----------------------------------------------------------------
-8-8-8-8----------------------------------------------------------------------
 Chorus (x6) Enjoy!!                                                          

Comments