Misc Artists - Dumb Thing Song Chords & Tabs

 

Dumb Thing Song Chords & Tabs

Misc Artists Chords & Tabs

Version: 1 Type: Tab 0 ratings
1 star 2 stars 3 stars 4 stars 5 stars
comments

Dumb Thing Song Tab

   
#----------------------------------PLEASE NOTE--------------------------------#
#This file is the author's own work and represents their interpretation of the#
#song. You may only use this file for private study, scholarship, or research.#
#-----------------------------------------------------------------------------#
#-- File created with Instab - http://www.pconline.com/~smcarey/instab.html --#
#-----------------------------------------------------------------------------#

Author/Artist: Jordan Halliday
Title: Dumb Thing Song
Album: N/A
Transcribed by: Jordan Halliday
Email: AcRoMaN87@aol.com

It is My Own Tab! I Just Made it Because I Was Bored!

------------------------------------------------------------------------------
------------------------------------------------------------------------------
------------------------------------------------------------------------------
---11----9----11-13-14-13-11-----11----9----11-13-14-13--11-------------------
-11--11-9-9-11-----------------11--11-9-9-11----------------------------------
------------------------------------------------------------------------------
                                                                              
[ Tab from: http://www.guitartabs.cc/tabs/m/misc_artists/dumb_thing_song_tab.html ]
------------------------------------------------------------------------------
------------------------------------------------------------------------------
------------------------------------------------------------------------------
-11-11-11-11-9-9-9-9-7-7-7-7-9-9-9-9-11-11-11-11-9-9-9-9-7-7-7-7-9------------
------------------------------------------------------------------------------
------------------------------------------------------------------------------
                                                                              

------------------------------------------------------------------------------
------------------------------------------------------------------------------
------------------------------------------------------------------------------
-7-7-7-7-5-5-5-5-4-4-4-4-5-5-5-5-7-7-7-7-5-5-5-5-4-4-4-4-5--------------------
-0-0-0-0-0-0-0-0-0-0-0-0-0-0-0-0-0-0-0-0-0-0-0-0-0-0-0-0-0--------------------
------------------------------------------------------------------------------
                                                                              

------------------------------------------------------------------------------
------------------------------------------------------------------------------
------------------------------------------------------------------------------
---11----9----11-13-14-13-11---11----9----11-13-14-13-11----------------------
-11--11-9-9-11---------------11--11-9-9-11------------------------------------
------------------------------------------------------------------------------
                                                                              

Comments