Misc Artists - Blues Bass Chords & Tabs

 

Blues Bass Chords & Tabs

Misc Artists Chords & Tabs

Version: 1 Type: Bass Tab 1 rating
1 star 2 stars 3 stars 4 stars 5 stars
comments

Blues Bass Bass Tab

   
                        Rock & Blues Dave Style
                                 Bass 1


        q  q  q  q     q  q  q  q     q  q  q  q     q  q  q  q         
G---||--------------|--------------|--------------|--------------|------
D---||--------------|--------------|--------------|--------------|------
A---||-----------0--|--2--3--2--0--|-----------0--|--2--3--2--0--|------
E---||--0--2--3-----|--------------|--0--2--3-----|--------------|------
                                                                        

    q  q  q  q     q  q  q  q     q  q  q  q     q  q  q  q             
G---------------|--------------|--------------|--------------|----------
D------------0--|--2--3--2--0--|--------------|--------------|----------
A---0--2--3-----|--------------|-----------0--|--2--3--2--0--|----------
E---------------|--------------|--0--2--3-----|--------------|----------
                                                                        

    q  q  q  q     q  q  q  q     q  q  q  q     q  q  q  q             
G---------------|--------------|--------------|--------------|----------
D---------------|--0--2--3--3--|--------------|--------------|----------
A---------------|--------------|--0--2--3--3--|--------------|----------
E---0--2--3--3--|--------------|--------------|--0--2--3--3--|----------
                                                                        

    e  e  e  e  e  e  e  e     e  e  e  e  e  e  e  e                   
G---------------------------|--------------------------|----------------
D---------------------0--0--|--1--1--0--0--------------|----------------
A---------0--0--3--3--------|--------------3--3--0--0--|----------------
E---1--1--------------------|--------------------------|----------------
                                                                        

    e  e  e  e  e  e  e  e     e  e  e  e  e  e  e  e                   
G---------------------------|--------------------------|----------------
D---------------------0--0--|--1--1--0--0--------------|----------------
A---------0--0--3--3--------|--------------3--3--0--0--|----------------
E---1--1--------------------|--------------------------|----------------
                                                                        
[ Tab from: http://www.guitartabs.cc/tabs/m/misc_artists/blues_bass_btab.html ]
    e  e  e  e  e  e  e  e     e  e  e  e  e  e  e  e                   
G---------------------0--0--|--1--1--0--0--------------|----------------
D---------0--0--3--3--------|--------------3--3--0--0--|----------------
A---1--1--------------------|--------------------------|----------------
E---------------------------|--------------------------|----------------
                                                                        

    e  e  e  e  e  e  e  e     e  e  e  e  e  e  e  e                   
G---------------------------|--------------------------|----------------
D---------------------0--0--|--1--1--0--0--------------|----------------
A---------0--0--3--3--------|--------------3--3--0--0--|----------------
E---1--1--------------------|--------------------------|----------------
                                                                        

    e  e  e  e  e  e  e  e     e  e  e  e  e  e  e  e     w     w       
G---------------------------|--------------------------|-----|--r--|----
D---------0--0--1--1--0--0--|--------------------------|-----|--e--|----
A---3--3--------------------|--3--3--1--1--0--0--------|-----|--s--|----
E---------------------------|--------------------3--3--|--1--|--t--|----
                                                                        

    q  q  q  q     q  q  q  q     q  q  q  q     q  q  q  q             
G---------------|--------------|--------------|--------------|----------
D---------------|--------------|--------------|--------------|----------
A------------0--|--2--3--2--0--|-----------0--|--2--3--2--0--|----------
E---0--2--3-----|--------------|--0--2--3-----|--------------|----------
                                                                        

    q  q  q  q     q  q  q  q     q  q  q  q     q  q  q  q             
G---------------|--------------|--------------|--------------|----------
D------------0--|--2--3--2--0--|--------------|--------------|----------
A---0--2--3-----|--------------|-----------0--|--2--3--2--0--|----------
E---------------|--------------|--0--2--3-----|--------------|----------
                                                                        

    q  q  q  q     q  q  q  q     q  q  q  q     q  q  q  q             
G---------------|--------------|--------------|--------------||---------
D---------------|--0--2--3--3--|--------------|--------------||---------
A---------------|--------------|--0--2--3--3--|--------------||---------
E---0--2--3--3--|--------------|--------------|--0--2--3--3--||---------
                                                                        

Comments