Misc - Zelda Kakariko Village Chords & Tabs

 

Zelda Kakariko Village Chords & Tabs

Misc Chords & Tabs

Version: 1 Type: Tab 2 ratings
1 star 2 stars 3 stars 4 stars 5 stars
comments

Zelda Kakariko Village Tab

Hi, my name is Cedric Lavallee
this is kakarico village that you can ear in Zelda.
This is 100% correct. It come from Nitendo.

e ---------------------------------------------X2--------------------
B ------------------------------3------------------------------------
G ------------------4------------------------------------------------
D --------5----------------5-----------------------------------------
A ----5--------5-----------------------------------------------------
E -------------------------------------------------------------------

e -------------------------------------------------------------------
B --3---5----------5------3------------------------------------------
G ------------------------------4------------------------------------
D -------------4-----------------------------------------------------
A -------------------------------------------------------------------
E -------------------------------------------------------------------

e -------------------------------------------------------------------
B -------------------------------------------------------------------
G ----4-------4-------2----------------------------------------------
D ---------------------------5---------------------------------------
A -------------------------------------------------------------------
E -------------------------------------------------------------------
[ Tab from: http://www.guitartabs.cc/tabs/m/misc/zelda_kakariko_village_tab.html ]
e -------------------------------------------------------------------
B -------------------------------------------------------------------
G -------------------------2-----------------------------------------
D -----5----5------4-------------5-----------------------------------
A --------------------------------------5----------------------------
E -------------------------------------------------------------------

e -------------------------------------------------------------------
B -------------------------------------------------------------------
G -------------------------------------------------------------------
D -------------------------------------------------------------------
A ---3------2-------3-------5-----2----------------------------------
E -------------------------------------------------------------------

e -------------------------------------------------------------------
B -------------------------------------------------------------------
G --------------------2----------------7-----------------------------
D ---5-----5----4------------5---------------------------------------
A --------------------------------2----------------------------------
E -------------------------------------------------------------------

e -------------------------------------------------------------------
B -------------------------------------------------------------------
G ---5-----4------2-----------------------------------------------------
D ------------------------5-------------------------------------------
A -------------------------------------------------------------------
E -------------------------------------------------------------------

That's all. And you just have to repeat it when it's finish.
Comments