Misc - Yellow Rose Of Texas Chords & Tabs

 

Yellow Rose Of Texas Chords & Tabs

Misc Chords & Tabs

Version: 1 Type: Tab 1 rating
1 star 2 stars 3 stars 4 stars 5 stars
comments

Yellow Rose Of Texas Tab

yellowrose of texas
e-----------------------------------------0-0-0-0-------------0-------1---------------
B----------------------------2-3---0------2-2-2-2-3---2-0-2-3-2-3-----0--------------
G---0------0-0-0-2-0---------0-0---2--0-0-0-0-0-0-0---0-0-0-0-0-0-----0-----0-0-0---
D------3-2--------------3-2--------0--------------------0-------0-----0-2-3---------
A------------------------------------------------------------------------------------------
E------------------------------------------------------------------------------------------

--------------------0-------1-1-1-1--0----------0----------
-------------2-3-2----------0-0-0-0--2-3---2----0--3-2----
--2-00-----0-0-0-0------0-0-0-0-0-0--0--0--2-0--0---------
--------3-2-----------------0-0-0-0----0---0--------------
----------------------------------------------------------------
----------------------------------------------------------------

[ Tab from: http://www.guitartabs.cc/tabs/m/misc/yellow_rose_of_texas_tab.html ]
Comments