Misc - Whiskey In The Jar Chords & Tabs

 

Whiskey In The Jar Chords & Tabs

Misc Chords & Tabs

Version: 1 Type: Tab 0 ratings
1 star 2 stars 3 stars 4 stars 5 stars
comments

Whiskey In The Jar Tab

Whiskey in the jar 

   Verse
e -------------------------------------------
b -------------------------------------------
g -------2-------2-2-4-2-----2-2-2-4-5-5-4-2-
d 2-5-5-5-5-2-2-5-------2-2-5---------------5
a -------------------------------------------
E -------------------------------------------	

e -------------------------------------------
b -------------------------------------------
g -5-4-2-----------2-------2-2-2-4-2-----2-2-
d 5-----2-2-2-5-5-5-5-2-2-5---------2-2-5----
a -------------------------------------------
E -------------------------------------------
[ Tab from: http://www.guitartabs.cc/tabs/m/misc/whiskey_in_the_jar_tab.html ]
e -------------------------------------------
b -------------------------------------------
g 2-4-5-5-4-2---5-4-2------------------------
d -----------2-2-----5-----------------------
a -------------------------------------------
E -------------------------------------------
  Chorus
e -------------------------------------------
b -------------------------------------------
g ------------------------------2-2-2-4-5-5-2
d 2-0-0-0-0-2-0--2-2-2-2-3-5-5-----5---------
a -3-----------------------------------------
E -------------------------------------------

e -------------------------------------------
b -------------------------------------------
g -------------------------------------------
d 5-2----------------------------------------
a ---5-5-3-3---------------------------------
E -------------------------------------------
Comments