Misc - Wedding March Chords & Tabs

 

Wedding March Chords & Tabs

Misc Chords & Tabs

Version: 1 Type: Bass Tab 0 ratings
1 star 2 stars 3 stars 4 stars 5 stars
comments

Wedding March Bass Tab

   
Standard Tuning, EADG

>INTRO
G-0--0-0-0-0--0-0-0-0
D--------------------
A--------------------
E--------------------

G-0-5-5-5--0-7-4-5
D-----------------
A-----------------
E-----------------
[ Tab from: http://www.guitartabs.cc/tabs/m/misc/wedding_march_btab.html ]
G-0-5-9-12-9-7-5-6-5-4-5-7
D-------------------------
A-------------------------
E-------------------------

>ENDING
G-0-5-5-5--0-7-4-5--0-5-9-12-9-7-5-4-5
D-------------------------------------
A-------------------------------------
E-------------------------------------
>(REPEAT 2X)
Comments