Misc - Warm Up Chords & Tabs

 

Warm Up Chords & Tabs

Misc Chords & Tabs

Version: 2 Type: Tab 0 ratings
1 star 2 stars 3 stars 4 stars 5 stars
comments

Warm Up Tab

   
warm up

--------------------------------------------------------------------------------------------------------------------
---------------------------2--------------------------2---4---2---4h---2---------2--------2----------------------
----------4--4--4--4----------4h---------1--1---4--------------------------4---------4--------4----1-----------
---6d/------------------------------4------------------------------------------------------------------------------
--------------------------------------------------------------------------------------------------------------------
--------------------------------------------------------------------------------------------------------------------
[ Tab from: http://www.guitartabs.cc/tabs/m/misc/warm_up_tab_ver_2.html ]
--------------------------------------------------------------------------------------------------------------------
---4--3--4h--3--4h--3--4--4----2-----------------------------------3---4---2h--------------------------------
--------------------------------  1------4---1-----1---4-------1---4------------------4----1---------------------
-----------------------------------------------4-----------4--------------------------------------------------------
--------------------------------------------------------------------------------------------------------------------
--------------------------------------------------------------------------------------------------------------------

d/= slide down the frets
h= hammer

Play it with Jazz rock style and you’ll get it. You can add the techniques I don’t believe I wrote them all down.
	
Comments