Misc - T.j.s Blues Chords & Tabs

 

T.j.s Blues Chords & Tabs

Misc Chords & Tabs

Version: 1 Type: Tab 1 rating
1 star 2 stars 3 stars 4 stars 5 stars
comments

T.j.s Blues Tab

--------------------  
--------------------
--------------------
--2-2--4-4--5-5--4-4
--0-0--0-0--0-0--0-0
--------------------  do this four times

--------------------
--------------------
--2-2--4-4--5-5--4-4
--0-0--0-0--0-0--0-0
--------------------
-------------------- do this twice

--------------------  
--------------------
--------------------
--2-2--4-4--5-5--4-4
--0-0--0-0--0-0--0-0
--------------------  do this twice


--------------------
--------------------  
--------------------
--------------------
--2-2--4-4--5-5--4-4
--0-0--0-0--0-0--0-0 do this once
[ Tab from: http://www.guitartabs.cc/tabs/m/misc/tjs_blues_tab.html ]
--------------------
--------------------
--2-2--4-4--5-5--4-4
--0-0--0-0--0-0--0-0
--------------------
-------------------- do this twice


--------------------  
--------------------
--------------------
--2-2--4-4--5-5--4-4
--0-0--0-0--0-0--0-0
--------------------  do this one time

-------------------------------------------
------4/5--5--4-4--3-3--2-2----------------
------X----X--X-X--X-X--X-X----------------
------4/5--5--4-4--3-3--2-2---0--1--2------
-0-0--------------------------0--0--0------
-------------------------------------------


/ SLIDE



THIS SONG IS PRETTY EASY AFTER YOU PRACTICE IT.


Comments