Misc - This Thing I Fell Inside By Mikey Chords & Tabs

 

This Thing I Fell Inside By Mikey Chords & Tabs

Misc Chords & Tabs

Version: 1 Type: Tab 1 rating
1 star 2 stars 3 stars 4 stars 5 stars
comments

This Thing I Fell Inside By Mikey Tab

   
song: this thing i feel inside in only in my mind                  
band: mikey101
tuning: D-A-D-G-B-e
[ Tab from: http://www.guitartabs.cc/tabs/m/misc/this_thing_i_fell_inside_by_mikey_tab.html ]
electric/ chorus
                  intro
|----------------------------------------------------------
|-----------------------------------------------------------
|--------6-h-7-p-6-----6-h-7-p-6-9-9--7--7--10--
|-----7-----------------7---------------------------------
|--5------------------5-----------------------------------
|-----------------------------------------------------------
                 
                 intro 2/ chorus
|--------------------------------------------------
|--------------------------------------------------
|-6--7-------------------------------------------
|-7--7--7--5--7-------------------------------X2
|-5--5--7--5--5--------------------------------
|-*---*--7--5--5--------------------------------
           *   *    *
                      verse 2 first verse is silent with bass and drums
|--------------------------------------------------
|--------------------------------------------------
|-x-x-5-x-x-4-x-x------------------------------    X2
|-x-x-5-x-x-5-x-x-5--x-x-5-------------
|-x-x-3-x-x-3-x-x-3--x-x-5------------
|---------------------3--x-x-5-------------

              chorus


intro
intro2/chorus
verse 1 silent'
chorus
verse 2
chorus
hit Em on interlude
chorus
Comments