Misc - The Star Spangled Banner Chords & Tabs

 

The Star Spangled Banner Chords & Tabs

Misc Chords & Tabs

Version: 5 Type: Tab 0 ratings
1 star 2 stars 3 stars 4 stars 5 stars
comments

The Star Spangled Banner Tab

this is absolutely right i'm positive

Symbols:  /=slide down
          ~=bend note up and down


E-----------------------------------------------------------
B-----------------------------------------------------------
G-----------------------------------------------------------
D------------------------------9---7---5--------------------
A-------------------------10--------------------------------
E---10---7---3---7---10--------------------7---9---10---10--

E-----------------------------------------------------------
B-----------------------------------------------------------
G-----------------------------------------------------------
D------9---7---5---4----------------------------------------
A----------------------7---9---10---10----------------------
E-10-------------------------------------10---7---3---10---7

E-----------------------------------------------------------
B-----------------------------------------------------------
G-----------------------------------------------------------
D----------------------------------9---7---5----------------
A-----------------------------10----------------------------
E---3---10---7---3---7---10--------------------7---9---10---
[ Tab from: http://www.guitartabs.cc/tabs/m/misc/the_star_spangled_banner_tab_ver_5.html ]
E-----------------------------------------------------------
B-----------------------------------------------------------
G-----------------------------------------------------------
D----------9---7---5---4----------------------------------9-
A--------------------------7---9---10---10------------------
E10---10-------------------------------------10---7---3-----

E-----------------------------------------------------------
B-----------------------------------------------------------
G-----------------------------------------------------------
D--9---9---10---12---12---10---9---7---9---10---10---10---9-
A-----------------------------------------------------------
E-----------------------------------------------------------

E-----------------------------------------------------------
B-----------------------------------------------------------
G-----------------------------------------------------------
D--7---5---4------------------------------------------------
A--------------7---9---10---------------------10---10---10/9
E---------------------------7---9---10---10-----------------

E-----------------------------------------------------------
B-----------------------------------------------------------
G-----------------------------------------------------------
D---------------7---10/9---5---4/3~~~~~-----------------7-9-
A---7---7---7---------------------------------------10------
E-----------------------------------------10---10-----------

E-----------------------------------------------------------
B-----------------------------------------------------------
G-----------------------------------------------------------
D-10-12---16/--------7---9---10---7---5~~~~~~~~~~~~---------
A---------------10------------------------------------------
E-----------------------------------------------------------

well there it is enjoy!
Comments