Misc - The Star Spangled Banner Chords & Tabs

 

The Star Spangled Banner Chords & Tabs

Misc Chords & Tabs

Version: 2 Type: Tab 0 ratings
1 star 2 stars 3 stars 4 stars 5 stars
comments

The Star Spangled Banner Tab

ok everyone ignore my other tab,i left out a part of the song so i\\\'m doing the whole thing over ok here it goes.......................

E------------0--4-2-0---------|
B--0-------0------------------|
G----1---1-------------1-3h4-4|
D------2----------------------|
A-----------------------------|
E-----------------------------|
                               play this twice
E------4-2-0--------0-0------|
B--0-0-------4--2-4-----0----|
G-------------------------1--|
D---------------------------2|
A----------------------------|
E----------------------------|
[ Tab from: http://www.guitartabs.cc/tabs/m/misc/the_star_spangled_banner_tab_ver_2.html ]
E--4-4-4-5-7-7--5-4-2-4-5-5|
B--------------------------|
G--------------------------|
D--------------------------|
A--------------------------|
E--------------------------|

E--5-4-2-0--------0--------|
B----------4--2-4----------|
G-------------------1-3h4-4|
D--------------------------|
A--------------------------|
E--------------------------|

E------------------2-5-4-2-0--|
B--0-5-5-5-4-2-2-2-----------4|
G-----------------------------|
D-----------------------------|
A-----------------------------|
E-----------------------------|

E------0-2-4-5-7--0-2-4--5-2-0|
B--0-0------------------------|
G-----------------------------|
D-----------------------------|
A-----------------------------|
E-----------------------------|

again ignore my other tab for this song I put the
other part in this one that i missed in the other one

enjoy
zachzeller@earthlink.net
Comments