Misc - Super Mario Underground Chords & Tabs

 

Super Mario Underground Chords & Tabs

Misc Chords & Tabs

Version: 1 Type: Bass Tab 2 ratings
1 star 2 stars 3 stars 4 stars 5 stars
comments

Super Mario Underground Bass Tab

Super Mario Underground theme
Tabbed by Peter Oh

This is the most fun bass tab u'll ever play for awhile so enjoy.. 
It's the return of classic =D




G---------5---------2----3----3--------5------2-----3----3----------------------
D-------------------------------------------------------------------------------
A----3-------3----------------------3------3------------------------------------
E-------------------------------------------------------------------------------
[ Tab from: http://www.guitartabs.cc/tabs/m/misc/super_mario_underground_btab.html ]
G--------------------------------------------------------------------------------
D---------3----------0----1--1-------------------0----1----1--------------------
A-----------------------------------------3-------------------------------------
E-----1--------1---------------------1------1----------------------------------

G--------------------------------------------------------------------------------
D-------------------------------------------------------------------------------
A------6h3----6---5-----------------4-----3h5h3----13--12--11--10--6--5--4-----
E-------------------------4-----3------------------------------------------------
Comments