Misc - Super Mario Bros Overworld Chords & Tabs

 

Super Mario Bros Overworld Chords & Tabs

Misc Chords & Tabs

Version: 1 Type: Tab 5 ratings
1 star 2 stars 3 stars 4 stars 5 stars
comments

Super Mario Bros Overworld Tab

   
Song: Super Mario Bros. (overworld)
Band: N/A
Tabbed by: SpRiNgWaFfLe [springwaffle@comcast.net]

This is how I play it. I know it's suppose to be
up an octave but still this is good enough.

 Intro
e-0-0-0---0-3--3-
b-------1---0--0-
g-----------0--0-
d--------------0-
a--------------2-
e--------------3-
 
  Riff 1
e|-------------------0-3-5-1-3-0--------|
b|.-1-------0--------------------1-3-0-.|
g|----0---2---3-2--0--------------------|
d|------2-------------------------------|
a|.------------------------------------.|
e|--------------------------------------|

                            _________________  ________
  Riff 2                   | 1                | 2
e|--3-2-1---0-------------|-3-2-1---0-8-8-8--|---------
b|.-------4-------1---1-3-|-------4---------.|-4--3--1-
g|------------1-2---2-----|------------------|---------
d|------------------------|------------------|---------
a|.-----------------------|-----------------.|---------
e|------------------------|------------------|---------
[ Tab from: http://www.guitartabs.cc/tabs/m/misc/super_mario_bros_overworld_tab.html ]
 Riff 3
e-----------0-----------------0------------0-------
b-1-1-1-1-3---1-----1-1-1-1-3----1-1-1-1-3---1-----
g---------------2-0----------------------------2-0-
d--------------------------------------------------
a--------------------------------------------------
e--------------------------------------------------
                      _____________________  ____________________
  Riff 4             | 1                    | 2
e|--0---------1-1---|---5-5-5-3-1-0--------|---1-1-1-0-----------
b|.---1-------------|-0-------------1-----.|-0---------3-1-------
g|------0-1-2-----2-|-----------------2-0--|---------------0-0---
d|------------------|----------------------|-------------------2-
a|.-----------------|---------------------.|---------------------
e|------------------|----------------------|---------------------

                      _____________________  ____________________
  Riff 4a            | 1                    | 2
e|--0---------1-1---|---5-5-5-3-1-0--------|---------------------
b|.---1-------------|-0-------------1-----.|---------------------
g|------0-1-2-----2-|-----------------2-0--|---------------------
d|------------------|----------------------|---3-3-3-2-0---------
a|.-----------------|---------------------.|-2-----------3-------
e|------------------|----------------------|---------------3-3-0-

 End (game over)
e-------------------------
b-------------------------
g-------------------------
d-------------------------
a-3-----0-2-0---1---------
e---3-0-------4---4-3-1-3-


Key
|-----|
|.---.| = repeat
|.---.|
|-----|
 _______  ________
| 1      | 2       = play the 1 first time then repeat, skip 1 and play 2


Song Structure:
Intro
Riff 1
Riff 2 x 2
Riff 3
Intro
Riff 1
Riff 4 x2
Riff 3
Intro
Riff 4a *
End

* Playing that last part an octave lower kinda sounds like Mario dying.
Comments