Misc - Suicide Is Painless Chords & Tabs

 

Suicide Is Painless Chords & Tabs

Misc Chords & Tabs

Version: 1 Type: Tab 4 ratings
1 star 2 stars 3 stars 4 stars 5 stars
comments

Suicide Is Painless Tab

E-|-3---2--0--2--0--2|-----0-----------|-----------------|--------------------|
B-|------------------|---------3------|---5---3---5---3--|--5---3---1----5----|
G-|------------------|-----------------|-----------------|--------------------|
D-|------------------|-----------------|-----------------|--------------------|
A-|------------------|-----------------|-----------------|--------------------|
E-|------------------|-----------------|-----------------|--------------------|
[ Tab from: http://www.guitartabs.cc/tabs/m/misc/suicide_is_painless_tab.html ]
    
E-|------------------|-----------------|-----------------|-------------------|
B-|-3----1--3--1---3-|----1---0-----3--|-1----0--1--0---1|-----3------5-------|
G-|------------------|-----------------|-----------------|--------------------|
D-|------------------|-----------------|-----------------|--------------------|
A-|------------------|-----------------|-----------------|--------------------|
E-|------------------|-----------------|-----------------|--------------------|


E-|--0-2-0-2-0-2-0---|--0-2-0-2-0-2-0--|------------0--2-|--3-------2-0-2---3v|
B-|------------------|-----------------|---3--0--3-------|--------------------|
G-|------------------|-----------------|-----------------|--------------------|
D-|------------------|-----------------|-----------------|--------------------|
A-|------------------|-----------------|-----------------|--------------------|
E-|------------------|-----------------|-----------------|--------------------|
Comments