Misc - Star Spangled Banner Traditional Chords & Tabs

 

Star Spangled Banner Traditional Chords & Tabs

Misc Chords & Tabs

Version: 1 Type: Tab 0 ratings
1 star 2 stars 3 stars 4 stars 5 stars
comments

Star Spangled Banner Traditional Tab

E-----------------------------------------------------------------------------------------
B-----------------------------------------------------------------------------------------
G—7—4—0—4s2s4----11--9—7---------------------11—9—7—6-------------
D-----------------------------------------4—6—7----7----------------------7--------
A-----------------------------------------------------------------------------------------
E-----------------------------------------------------------------------------------------

E-----------------------------------------------------------------------------------------
B-----------------------------------------------------------------------------------------
G—4—6—7--7------------------------------------7----11—9—7------------------
D---------------------------------7—4—0—4—7----------------------4—6—7---
A-----------------------7—4—0-------------------------------------------------------
E-----------------------------------------------------------------------------------------

E—12—14—12—10s12s10—9—10-----------9—10----------------------------
B-------------------------------------------10----10------------------------------------
G-----------------------------------------------------------------------------------------
D------------------------------------------------------------------7—4—0-------------
A-----------------------------------------------------------------------------------------
E-----------------------------------------------------------------------------------------
[ Tab from: http://www.guitartabs.cc/tabs/m/misc/star_spangled_banner_traditional_tab.html ]
E----------------------------------------------------------------------------------------
B—7—7—7—8—10—10--8—7—5—7—8—8—8—7—5—3s5s3—2---
G------------------------------------------------------------------------------------2--
D----------------------------------------------------------------------------------------
A----------------------------------------------------------------------------------------
E----------------------------------------------------------------------------------------

E----------------------------------------------------------------------------------------
B---------7s10--------------------------------------------------------------------------
G—4s7----------7—7—7—6—4—4—4—9-11s12s11—7-9s11s9—7—6---
D--------------------------------------------------------------------------------------7-
A-----------------------------------------------------------------------------------------
E------------------------------------------------------------------------------------------

E--------------------------------14—15-17------------14—12s14s12—15—9—10--10
B-----15—15—14—15—17--------------------15—17---------------------10---10--10
G—14—14----------------------------------------------------------------------------------
D-----------------------------------------------------------------------------------------------
A-------------------------------------------------------------------------------------------------
E-------------------------------------------------------------------------------------------------
Comments