Misc - Star Spangled Banner Chords & Tabs

 

Star Spangled Banner Chords & Tabs

Misc Chords & Tabs

Version: 9 Type: Tab 0 ratings
1 star 2 stars 3 stars 4 stars 5 stars
comments

Star Spangled Banner Tab

e|---------------------------------------------------------------------------|
B|-8--------8/13-15b17r15-13--------------15b17r15-15-13-12-10-12-13-13------|
G|---9----9-----------------9-10-12-12-12------------------------------12-9--|
D|-----10------------------------------------------------------------------10|
A|---------------------------------------------------------------------------|
E|---------------------------------------------------------------------------|

e|---------------------------------------------------------------------------|
B|-8--------8/13-15b17r15-13--------------15b17r15-15-13-12-10-12-13-13------|
G|---9----9-----------------9-10-12-12-12------------------------------12-9--|
D|-----10------------------------------------------------------------------10|
A|---------------------------------------------------------------------------|
E|---------------------------------------------------------------------------|
[ Tab from: http://www.guitartabs.cc/tabs/m/misc/star_spangled_banner_tab_ver_9.html ]
e|---------------------------------------------------------------------------|
B|-17-17-17-18-20-20-18-17-15-17-18-18-18-17-15-13-12-10-12-13---------------|
G|------------------------------------------------------------9-10-12--------|
D|---------------------------------------------------------------------------|
A|---------------------------------------------------------------------------|
E|---------------------------------------------------------------------------|

e|---------------------------------------------------------------------------|
B|---13-13-13-12-10-10-10/15-17-18-17-15\13-13-12-----13-15-17-18-20---------|
G|12---------------------------------------------12-12-----------------------|
D|---------------------------------------------------------------------------|
A|---------------------------------------------------------------------------|
E|---------------------------------------------------------------------------|

e|---------------------------------------------------------------------------|
B|-13-15-17-18-15-13~--------------------------------------------------------|
G|---------------------------------------------------------------------------|
D|---------------------------------------------------------------------------|
A|---------------------------------------------------------------------------|
E|---------------------------------------------------------------------------|
Comments