Misc - Star Spangled Banner Chords & Tabs

 

Star Spangled Banner Chords & Tabs

Misc Chords & Tabs

Version: 2 Type: Tab 6 ratings
1 star 2 stars 3 stars 4 stars 5 stars
comments

Star Spangled Banner Tab

1--------------------------------0-----------------------0------------------------------------------------------
2-----------------------1----------3-1------------------------3-1-0--------------0-1-1-----------------------
3----------0----------0-----------------------0----0-0----------------------2---------------------------------
4------------2------2--------------------2-4--------------------------------------------------------------------
5--------------3------------------------------------------------------------------------------------------------
6---------------------------------------------------------------------------------------------------------------
[ Tab from: http://www.guitartabs.cc/tabs/m/misc/star_spangled_banner_tab_ver_2.html ]
1----------------------0--0-0----1--3-3---1-0------0-1-1-------1-0---------------------------------------
2-----------------------------------------------3--------------------3--1--0----------------------
3-----------0---------------------------------------------------------------------------------------------------
4-------------2------------------------------------------------------------------------------------------------
5---------------3-----------------------------------------------------------------------------------------------
6---------------------------------------------------------------------------------------------------------------

1---------------------------------------------------------------------------010---------------------------------
2--------0-1-1-----------------------1-1-------1-0-------------3----------------311----0-----------------
3------2--------------0------------0-------------------2-2-2---------------------------------------------------
4-----------------2-4-------------------------------------------------------------------------------------------
5---------------------------------------------------------------------------------------------------------------
6---------------------------------------------------------------------------------------------------------------

1---------------------0-1-3-------------0---1-----------------------------------------------------
2--------------1---3----------------1-3--------3---1----------------------------------
3------------0--------------------------------------------------------------------------------------------
4--------------------------------------------------------------------------------------------------------------
5--------------------------------------------------------------------------------------------------------------
6---------------------------------------------------------------------------------------------------------------


Comments