Misc - Star Spangled Banner Chords & Tabs

 

Star Spangled Banner Chords & Tabs

Misc Chords & Tabs

Version: 1 Type: Bass Tab 0 ratings
1 star 2 stars 3 stars 4 stars 5 stars
comments

Star Spangled Banner Bass Tab

Star Spangled Banner bass tablature
written by Francis Scott Key (I think)
tabbed by Eric Browne

Normal tuning (EADG)
*9* -> Let note ring
11/13 -> Slide up
13\11 -> Slide down

G|---------------------*9*------11/13--11--9-------------------
D|*--9--------------9---------------------------------*9*------
A|*-----11------11----------------------------11--13-----------
E|----------12-------------------------------------------------

------11/13--11--9--*8*------6--8--9--9-------------|
9--9-------------------------------------9--6------*|
-----------------------------------------------7---*|
----------------------------------------------------|
[ Tab from: http://www.guitartabs.cc/tabs/m/misc/star_spangled_banner_btab.html ]
G|--13--13--13--14--16--*16*------14--13------13--14=97-*14*
D|----------------------------------------16--------------
A|--------------------------------------------------------
E|--------------------------------------------------------

---------14--13----------------------------------------------|
-----------------16--14--*13*------11-=9713--14----------------|
-----------------------------------------------11--13=97-*14*--|
-------------------------------------------------------------|

G|---------------------------------11--13--14--13--11----------------
D|------14--14=97-14\13--11--11--11----------------------14=9713/14--*13*
A|--14---------------------------------------------------------------
E|-------------------------------------------------------------------

------------9--11--13--14=9714/*16*------9--11--13--14--11--*9*--|
------9--9-----------------------------------------------------|
---------------------------------------------------------------|
---------------------------------------------------------------|


Comments