Misc - Spanish Scale Chords & Tabs

 

Spanish Scale Chords & Tabs

Misc Chords & Tabs

Version: 1 Type: Tab 0 ratings
1 star 2 stars 3 stars 4 stars 5 stars
comments

Spanish Scale Tab

e---12---12---10---8---7h8--5---8p7p5--4--4h5----4---4---5---4
b---10-----------------------------------------5---5---5---5---5
g---9-----------------------------
d---10----------  -   -    -------
a---0------------   -   -----------
e---------------  -----  ---------
I use a variety of of techniques basically all i say is experiment with
different spanish styles and try to do it using fingerpicking.
So have fun its not the hardest thing in the world but you can play it 
for hours. 
----5--4--1---------------------------------------------------------
--------------5---3---1---0------------------------------------------
------------------------------5---4---2--------------------------------
--------------------------------------------5---3---2------------------
---------------------------------------------------------------------
------------------------------------------------------------

just improvise on that and youll have people calling you pedro for ages 
its really cool
enjoy
johnnie
[ Tab from: http://www.guitartabs.cc/tabs/m/misc/spanish_scale_tab.html ]
Comments