Misc - Some Military Theme Chords & Tabs

 

Some Military Theme Chords & Tabs

Misc Chords & Tabs

Version: 1 Type: Tab 2 ratings
1 star 2 stars 3 stars 4 stars 5 stars
comments

Some Military Theme Tab

Hi my name is Austin Griffin 15/m/tx... Been playin' about seven months.
I play a Fender B bender tele with a sunburst finish... 
This is my first tab so please don't criticise or anything..
comments/compliments/questions/complaints/ or just to chat contact me 
at  (n0llmit@aol.com)   please cut and paste it into the mail... 
the name has a zero and the l's and it's complicated... welll later!!



e------------------------------------------
b------------------------------------------
g------------------------------------------
d------------------------------------------
a--0---0----5v~~---------------------------
e------------------------------------------
[ Tab from: http://www.guitartabs.cc/tabs/m/misc/some_military_theme_tab.html ]
e------------------------------------------
b------------------------------------------
g------------------------------------------
d------------------------------------------
a--0---5----9v~~---------------------------
e------------------------------------------

e------------------------------------------x2
b------------------------------------------
g------------------------------------------
d------------------------------------------
a--0---0----9v~~---------------------------
e------------------------------------------

e------------------------------------------
b------------------------------------------
g------------------------------------------
d------------------------------------------
a--0---5----9----12~~----------------------
e------------------------------------------

e------------------------------------------
b------------------------------------------
g------------------------------------------
d------------------------------------------
a--0---5----9----12---9---5------0-0----5v~
e------------------------------------------
Comments