Misc - Simple Cool Song By Malcolm Smith Chords & Tabs

 

Simple Cool Song By Malcolm Smith Chords & Tabs

Misc Chords & Tabs

Version: 1 Type: Tab 0 ratings
1 star 2 stars 3 stars 4 stars 5 stars
comments

Simple Cool Song By Malcolm Smith Tab

   




Song:




Song:Simple cool tune
Writen By:Malcolm Smith from Scotland 
Tabbed By:Malcolm Smith and Stewart Fenwick
(This Is our first go at tab.)

   Em|022000|
   G*|320000|
   A5|002200|
Cadd9|032033|
  G/F|200033|

[ Tab from: http://www.guitartabs.cc/tabs/m/misc/simple_cool_song_by_malcolm_smith_tab.html ]
e|-------------------------------------------|
B|-------------------------------------------|
G|-------0-------------------2---------0-----|  (x2)
D|-----2---2-------0-------2---2-----2---2---|
A|---2-----------2---2---0---------3---------|
E|-------------3-----------------------------|


e|-------------------------------------------|
B|-------------------------------------------|
G|-------0---------0-------------------------| (x2)
D|-----2---2-----2---2-------0---------0-----|
A|---2---------3-----------2---2-----0---0---|
E|-----------------------3---------2---------|


then start strumming = Em Cadd9 G* G/F (STRUMMING TOP FOUR STRINGS) then....
           strumming = Em G* A5 Cadd9  (repeat whole thing till you get bored)




Comments